DumanForever.com | Duman Fan Sitesi - Video, Resim, Forum Konser - Duman Paylasım

Anasayfa

Forum

Dosyalar

Biyografiler

MP3

Resimler

Video

Oyunlar

Incelemeler

Haberler

Iletisim

DF'Radyo

Sponsor Bağlantılar
Ana Menü
 
Anasayfa
Arama
Haber Arşiv
Avatar Hazırlayıcı
Forum
Resim Galerisi
Rock Müzik Nedir?
Site Haritası
Şikayet Et
Türkçe Video
Yönetici Listesi
Yabancı Video

  Duman Menü

Akor / Tab
Duman Biyografi
Videolar
Duman İncelemeler
Duman Mp3 Çalar
Duman Radyo
Duman Şarkı Sözleri
Duman Video
Duman Tanıtım
Duman Biographie

  İletişim
İletişim
Bağlantılar

Üyeler İçin
Haber Ekle
Link Ekle
Makale Ekle

Download
Download


Rastgele Resim
En Son İnceleme
Duman Sevdim Desem D...
Duman Bu aşk beni yo...
FERİDUN DÜZAĞAÇ
Duman Belki Alışmam ...
Duman Ah Dinle
Duman Senin Gibi Dinle
Duman Belki Alışman ...
Duman Her Şeyi Yak D...
Duman Aman Aman Dinle
Duman Hatun Dinle
En Çok İndirilenler
Kaan Winamp Skin 2381
Duman Avatarları 1897
Batuhan Winamp Skin 1020
Multi MSN 8.0 683
MSN 8.0 568
Windows Media Player 10 547
Metallica-Unforgiven... 503
En Yeni Üyeler
Üye AdıKatılım
yaytar 07-07
07190707asd 04-07
Dumanist422 12-06
ddemett 10-06
DarmaDumanist 18-05
kafkasokan 21-04
Good98 14-04
wombatnecmi 10-04
Emre09 25-03
Sidal 06-03
Günlük Burc



RSS Feeds
Subscribe to our feeds!

Çevrimiçi Kullanıcılar
Çevrimiçi Ziyaretçiler: 13
Çevrimiçi Üye Yok

Kayıtlı Üyeler: 17,335
En yeni Üyemiz: yaytar
 Başlığı Görüntüle
DumanForever.com | Duman Fan Sitesi - Video, Resim, Forum Konser - Duman Paylasım | Duman Grubu Paylaşım | Duman Akor-Tab
Yazar oje (akor-tab)
DeaTh AnGeL
Üye

Üye Avatar

Mesaj Sayısı: 423
Nereden: KAranlık Ev..!
Katılım Tarihi: 30.01.07
Mesaj Tarihi 05-11-2007 13:06
e|--------------------------------------------|
B|--------------------------------------------|
G|---------------------2-2--------------------|
D|-------------3-3-2--------------------------|
A|-0-0-2-3-0-0-------------0-0-2-3-0-0----3-2-|
E|-------------------------------------4-4----|

Am F E (Am - F - E)
Gidiyorum gözüm arkada
Am F E (Am - F - E)
Kaçamadık buradan basbasa
Am F E Am (F - E)
Hangi oje yakısmaz ki kız sana

Am F E (Am - F - E)
Gidiyorum gözüm arkada
Am F E (Am - F - E)
Kaçamadık buradan basbasa
Am F E Am (F)
Hangi oje yakısmaz ki kız sana
E Am (F - E)
Ver elini bana

Am F E Am (F - E) )
Gel yanıma gir koynuma )
) NAKARAT x2
Am F E )
Gel yanıma gir koynuma )

Am F E (Am - F - E)
Doyamadım dönüp bakmaya
Am F E (Am - F - E)
Ne de güzel durmus yanyana
Am F E Am (F - E)
Hangi oje yakısmaz ki kız sana
E Am (F - E)
Ver ayagı bana

F Am E F Am F Am E

Am F E Am (F - E) )
Gel yanıma gir koynuma )
) NAKARAT x2
Am F E )
Gel yanıma gir koynuma )

Am F E Am
Gel yanıma gir koynuma
(Am F E Am)
(Hangi oje yakısmaz ki kız sana)
Am F E
Gel yanıma gir koynuma
(Am F E)
(Kaçamadık buradan basbasa)

Am F E Am
Gel yanıma gir koynuma
(Am F E Am)
(Hangi oje yakısmaz ki kız sana)
Am F E Am
Gel yanýma gir koynuma
Am F E
Hangi oje yakısmazki kız sana


[img]http://img132.imageshack.us/img132/723/deathangelactiiifrontgr8.jpg[/img]

Ne şekil için verenle nede veren için şekilden şekle girenle işim olmaz
bu ne ya bilmiom hiç duymadım danger_mentos@hotmail.com :P www.slipknotforever.com Özel Mesaj Gönder
Yazar RE: oje (akor-tab)
rockstar67
Üye

Üye Avatar

Mesaj Sayısı: 205
Nereden: zonqulduck
Katılım Tarihi: 28.06.07
Mesaj Tarihi 05-11-2007 13:27
saol=)


Özel Mesaj Gönder
Yazar RE: oje (akor-tab)
delicizem
Üye

Mesaj Sayısı: 517
Katılım Tarihi: 12.06.07
Mesaj Tarihi 16-11-2007 20:00
bunların notaları var mı kalvye için falan :S:S


I. tekil şahıslıktan cıktık gibi...Hayat zor....III. tekiliz artık....
Özel Mesaj Gönder
Yazar RE: oje (akor-tab)
alpp
Üye

Üye Avatar

Mesaj Sayısı: 113
Nereden: RoCk CeNTeR
Katılım Tarihi: 17.07.07
Mesaj Tarihi 17-11-2007 09:20
notalar bildiğime göre zor bulunur sen en iyi çevirici kağıt bul notaları-tabb'a veya tabb'ı notaya çevirir smiley
Özel Mesaj Gönder
Yazar RE: oje (akor-tab)
batuhan__17
Üye

Mesaj Sayısı: 38
Nereden: İstanbul
Katılım Tarihi: 07.12.07
Mesaj Tarihi 07-12-2007 22:21
arkadaşlar bu akorlar doğru ama Batuhan pozisyonlarından çalıyo.http://www.youtube.com/watch?v=M15-D_QvnOU bu videoyu izleyin batuhanı çalarken gösterio
nevermind-17@hotmail.com Özel Mesaj Gönder
Yazar RE: ewtt bu!
gisssem
Üye

Mesaj Sayısı: 4
Nereden: Çanakkale
Katılım Tarihi: 11.07.07
Mesaj Tarihi 17-12-2007 17:52
arkadasım sanırım gercek tablar bunLarsmiley

---------------------------------------------------------
---------------------------------------------------------
---------------------------------------------------------
---------------------------7-----------------------------
----------------8b8----8-7---7---------------------------
-/5---5-7-8-5-5-----------------/5---5-7-8-5-5-4---4-8--7

***kıta***

kıta A
Am F E
------5*---5----5-----------------------
------5*---5------5------10*-10-------9-
------5*------------5----10*--------9---
------7*------7----------10*------9-----
------7*----------------8-8*-----7------
----5-5*--------------------------------
pm:[___________________________]
kıta B
Am F E
------5*-7-8---7---5--------------
------5*-------------6h5-------9--
------5*---------------------9----
------7*-------------------9------
------7*-----------------7--------
----5-5*--------------------------
pm:[___]


***koro***

1. gitar 3 defa şunu yapıyor:
Am F E
------5---5----5-----------------------
------5---5------5------10*-10-------9-
------5------------5----10*--------9---
----7-7------7----------10*------9-----
----7-7----------------8-8*-----7------
----5-5--------------------------------
pm:[_]

2. gitar ilk defasında ya susuyor ya aynısını çalıyor

2. defasında şunu:
-----------------------------------------
-----------------------------------------
-----------------------------------------
------------------7---9-10-12-10-9-7-9-10
-----------------------------------------
-----------------------------------------

3.te şunu:
-----------------------------------------
-----------------------------------------
-----------------------------------------
-7---------------------------------------
-----------------------------------------
-----------------------------------------

sonra 2 gitar birlikte
E5/A
--------------------------------
--------------------------------
-2-2-2-2-2-2-2-2-2-2-2-2-2-2-2-2
-2-2-2-2-2-2-2-2-2-2-2-2-2-2-2-2
-2-2-2-2-2-2-2-2-2-2-2-2-2-2-2-2
-0-0-0-0-0-0-0-0-0-0-0-0-0-0-0-0

bridge
Am F E
---5*-5-5---------5*-5-5-------------------------------------------
---5*-----5-------5*-----5--------10*--10-10-----------9*-9-9------
---5*-------5-----5*-------5------10*--------10--------9*-----9----
---7*---------7---7*---------7----10*-----------10-----9*-------9--
---7*-------------7*------------8-8*---------------8-7-7*---------7
-5-5*-----------5-5*-----------------------------------------------

Am F E5
---5*-5-5---------5*-5-5---------------------------------------------------
---5*-----5-------5*-----5--------10*--10-10-------------------------------
---5*-------5-----5*-------5------10*--------10--------9-9-9-9-9-9-9-9-----
---7*---------7---7*---------7----10*-----------10---9-9-9-9-9-9-9-9-9-----
---7*-------------7*------------8-8*---------------8-7-7-7-7-7-7-7-7-7-----
-5-5*-----------5-5*-------------------------------------------------------
Özel Mesaj Gönder
Yazar RE: oje (akor-tab)
batuhan__17
Üye

Mesaj Sayısı: 38
Nereden: İstanbul
Katılım Tarihi: 07.12.07
Mesaj Tarihi 17-12-2007 18:36
tablardan değilde dediğim gibi videoyu izleyin sonrada pozisyonlara bakın akor cetvelinden blues akorlarıyla çalıyo
nevermind-17@hotmail.com Özel Mesaj Gönder
Yazar RE: oje (akor-tab)
gzm-13
Üye

Mesaj Sayısı: 133
Katılım Tarihi: 28.06.07
Mesaj Tarihi 10-01-2008 21:17
ilki daha kolaydısmiley
Özel Mesaj Gönder
Yazar RE: oje (akor-tab)
duMaN_JaM
Üye

Mesaj Sayısı: 188
Katılım Tarihi: 29.10.07
Mesaj Tarihi 12-01-2008 13:21
eed yaa 2. bayağğğı bi zor :S


[img]http://img409.imageshack.us/img409/5459/film00052nr5.gif[/img]
Özel Mesaj Gönder
Yazar RE: oje (akor-tab)
BiLgE_ba_tu_han
Üye

Üye Avatar

Mesaj Sayısı: 933
Nereden: anTaLya
Katılım Tarihi: 08.07.07
Mesaj Tarihi 12-01-2008 13:23
Ama 1. çok acemice.. Gerçek sesler için 2. daha uyqun görünüo


Herkes o dilbere hayran dönüpte bakmayan hayvaan (.!.) smileysmiley

^^DF arKadaşlıkları bi başka smiley
Özel Mesaj Gönder
Yazar RE: oje (akor-tab)
D00M
Üye

Mesaj Sayısı: 194
Nereden: istanbul
Katılım Tarihi: 09.01.08
Mesaj Tarihi 12-01-2008 13:46
paylaşım için teşekkürler


doom__91@hotmail.com Özel Mesaj Gönder
Yazar RE: oje (akor-tab)
DeWiLbOyZ
Üye

Mesaj Sayısı: 1
Nereden: ankara ama kıbrıstayım
Katılım Tarihi: 21.03.08
Mesaj Tarihi 21-03-2008 18:37
ssagol kardes paylasım ıcın thnx


sadece kızlar smileysmiley
Özel Mesaj Gönder
Yazar RE: oje (akor-tab)
DamraRogos
Üye

Mesaj Sayısı: 22
Nereden: İstanbul
Katılım Tarihi: 02.01.08
Mesaj Tarihi 21-03-2008 19:46
yaa bu siteyi biras hareketlendirelim aynı akor ve tablar olmuyo ben şimdi bira lake bodom die mothe fu.ker die fln eklesem acaba uygun olurmu buraya smiley


İmZaM Y0q BaRNaK BaSSaM OLurNu??
Özel Mesaj Gönder
Yazar RE: oje (akor-tab)
Wizard
Üye

Mesaj Sayısı: 1
Nereden: Bataklık
Katılım Tarihi: 04.03.09
Mesaj Tarihi 04-03-2009 16:10
gisssem
Arkadaşın eklediği orijinalidir .


Hangi OJE yakışmaz ki kız sana
Özel Mesaj Gönder
Atlanilacak Forum:
Duman Forever Araçlar

| |

Anket
Sitenin arka plan resmi değişsin mi yoksa kalsın mı?

Evet değişsin.

Hayır değişmesin.

Ankete katılabilmek için üye olmanız yada üye girişi yapmanız gerekmektedir.
Giriş
Kullanıcı Adı

Şifre



Henüz ÜYE Olmadınız mı?
Buraya Tıklayarak Üye Olabilirsiniz.

Şifremi Unuttum?
Şifrenizi öğrenebilmek için Buraya Tıklayın.
Kısa Mesajlar
Mesajınızı gönderebilmeniz için üye olmanız yada üye girişi yapmanız gerekmektedir.

DuMaN_EmiR
09/01/2019 12:20
tekrar selam. ulaşsın eskiler instagram/m.emir.et smiley

recover
12/10/2018 21:46
emirsmiley

Slipknot_9
08/07/2018 02:26
Slipknot forever ne oldu ya ^^

DuMaN_EmiR
29/05/2018 09:50
Herkese selam. smiley

manyaqiz
23/05/2018 01:58
ah burayı nasıl özledim smiley

Kısa Mesajlar Arşivi
Forum Başlıkları
En Yeni Başlıklar
Ben Kimim?
Site İstek ve Revize...
Şu anda ne dinliyors...
grup içinde ayrım ya...
Amatör gruplar sahne...
En Fazla İlgilenilen Başlıklar
Ben Kimim? [1012]
3 Harf 1 Cümle [1007]
en sevdiğiniz şar... [1002]
Şu anda ne dinliy... [808]
Kaan Tangöze [654]
Destekleyenler
No buttons defined.
Doğum Günü
andysoftle
axi_cojuq
ayse
batuhanb
batu_ceren
benlaylaylom
Black_Panther
crazybombom
dumanmahmut
dumann1243
dumanya
dumanyak869
gazi93
gulerkaan
hsnsykn
JetAdore
kardelen
my name is rock
puturuh
rockk_metall
rock_grl
soner KIZILSU
xlifesagoca
xXknbXx
zehrock
_ilker_
Copyright © 2006 - 2009 DumanForever.com
Valid CSS! Page Strength SEO Tool - SEOmoz.org