En Güzel Günüm Gecem (tab) - DumanForever.com | Duman Fan Sitesi - Video, Resim, Forum Konser - Duman Paylasım

Anasayfa

Forum

Dosyalar

Biyografiler

MP3

Resimler

Video

Oyunlar

Incelemeler

Haberler

Iletisim

DF'Radyo

Sponsor Bağlantılar
Ana Menü
 
Anasayfa
Arama
Haber Arşiv
Avatar Hazırlayıcı
Forum
Resim Galerisi
Rock Müzik Nedir?
Site Haritası
Şikayet Et
Türkçe Video
Yönetici Listesi
Yabancı Video

  Duman Menü

Akor / Tab
Duman Biyografi
Videolar
Duman İncelemeler
Duman Mp3 Çalar
Duman Radyo
Duman Şarkı Sözleri
Duman Video
Duman Tanıtım
Duman Biographie

  İletişim
İletişim
Bağlantılar

Üyeler İçin
Haber Ekle
Link Ekle
Makale Ekle

Download
Download


Rastgele Resim
En Son İnceleme
Duman Sevdim Desem D...
Duman Bu aşk beni yo...
FERİDUN DÜZAĞAÇ
Duman Belki Alışmam ...
Duman Ah Dinle
Duman Senin Gibi Dinle
Duman Belki Alışman ...
Duman Her Şeyi Yak D...
Duman Aman Aman Dinle
Duman Hatun Dinle
En Çok İndirilenler
Kaan Winamp Skin 2381
Duman Avatarları 1897
Batuhan Winamp Skin 1020
Multi MSN 8.0 683
MSN 8.0 568
Windows Media Player 10 547
Metallica-Unforgiven... 503
En Yeni Üyeler
Üye AdıKatılım
yaytar 07-07
07190707asd 04-07
Dumanist422 12-06
ddemett 10-06
DarmaDumanist 18-05
kafkasokan 21-04
Good98 14-04
wombatnecmi 10-04
Emre09 25-03
Sidal 06-03
Günlük Burc



RSS Feeds
Subscribe to our feeds!

Çevrimiçi Dumancı
Misafir Dumancı: 64
Çevrimiçi Üye Uok

Kayıtlı Üyeler: 17,335
Son Üye: yaytar
 Başlığı Görüntüle
DumanForever.com | Duman Fan Sitesi - Video, Resim, Forum Konser - Duman Paylasım | Duman Grubu Paylaşım | Duman Akor-Tab
Yazar
En Güzel Günüm Gecem (tab) 1 - 5
gisssem
Üye

Mesaj Sayısı: 4
Nereden: Çanakkale
Katılım Tarihi: 11.07.07
Üye No : 4431
Durum :
Mesaj Tarihi 17-12-2007 18:21
BATUHAN
E||--------------------------|-------------------------|----||
B||--------------------------|-------------------------|----||
G||--------------------------|-------------------------|----||
D||--6--6--6--6--6--6--6--6--|--7--7--4----4--4--4--4--|----|| sozlere kadar x6 ilk ikisi tek 3. de alttaki riff giriyo
A||--6--6--6--6--6--6--6--6--|--7--7--4----4--4--4--4--|----||
E||--4--4--4--4--4--4--4--4--|--5--5--2----2--2--2--2--|----||
KAAN
E||------------------------|-----------------------|------------------------|--------------------||
B||--4--2----0--4--2----0--|--4--2----0--5--4------|--4--2----0--4--2----0--|--4--0--5--0--5/-7--||
G||------------------------|-----------------------|------------------------|--------------------|| sozlere kadar x2
D||------------------------|-----------------------|------------------------|--------------------||
A||------------------------|-----------------------|------------------------|--------------------||
E||------------------------|-----------------------|------------------------|--------------------||




sozlerde
E||--------------------------|-------------------------|----|| KAFADAN ATTIM SALLADIM... ...BEN GONULDEN İNANDIM
B||--------------------------|-------------------------|----||
G||--------------------------|-------------------------|----||
D||--6--6--6--6--6--6--6--6--|--7--7--4----4--4--4--4--|----|| ilk kıtada burası ama PALM MUTING YAPMANIZ GEREKİYO
A||--6--6--6--6--6--6--6--6--|--7--7--4----4--4--4--4--|----|| x4
E||--4--4--4--4--4--4--4--4--|--5--5--2----2--2--2--2--|----||


PALM Muting
E||------------------|------------------|----------------------------------|------||
B||------------------|------------------|----------------------------------|------|| SARKINI SEC GEL BENİMLE... ...DALGANI GEC SEN BENİMLE
G||------------------|------------------|----------------------------------|------||
D||--7-7-7-7-7-7-7-7-|--6-6-6-6-6-6-6-6-|--7-7-7-7-4-4-4-4-6-6-6-6-6-6-6-6-|------|| x1
A||--7-7-7-7-7-7-7-7-|--6-6-6-6-6-6-6-6-|--7-7-7-7-4-4-4-4-6-6-6-6-6-6-6-6-|------||
E||--5-5-5-5-5-5-5-5-|--4-4-4-4-4-4-4-4-|--5-5-5-5-2-2-2-2-4-4-4-4-4-4-4-4-|------||





EN BASTAKİLER
BATUHAN
E||--------------------------|-------------------------|----||
B||--------------------------|-------------------------|----||
G||--------------------------|-------------------------|----||
D||--6--6--6--6--6--6--6--6--|--7--7--4----4--4--4--4--|----|| x4
A||--6--6--6--6--6--6--6--6--|--7--7--4----4--4--4--4--|----||
E||--4--4--4--4--4--4--4--4--|--5--5--2----2--2--2--2--|----||
KAAN
E||------------------------|-----------------------|------------------------|--------------------||
B||--4--2----0--4--2----0--|--4--2----0--5--4------|--4--2----0--4--2----0--|--4--0--5--0--5/-7--||
G||------------------------|-----------------------|------------------------|--------------------|| x2
D||------------------------|-----------------------|------------------------|--------------------||
A||------------------------|-----------------------|------------------------|--------------------||
E||------------------------|-----------------------|------------------------|--------------------||





E||--------------------------|-------------------------|----|| ELİNİ VERDİN SIKMADIM... ...SEN GONULDEN İNANDIN
B||--------------------------|-------------------------|----||
G||--------------------------|-------------------------|----||
D||--6--6--6--6--6--6--6--6--|--7--7--4----4--4--4--4--|----|| ikinci kıtada burası ama PALM MUTING YAPMANIZ GEREKİYO
A||--6--6--6--6--6--6--6--6--|--7--7--4----4--4--4--4--|----|| x4
E||--4--4--4--4--4--4--4--4--|--5--5--2----2--2--2--2--|----||



|----PALM Muting---|
E||------------------|------------------|----------------------------------|------||
B||------------------|------------------|----------------------------------|------|| SARKINI SEC GEL BENİMLE... ...DALGANI GEC SEN BENİMLE
G||------------------|------------------|----------------------------------|------||
D||--7-7-7-7-7-7-7-7-|--6-6-6-6-6-6-6-6-|--7-7-7-7-4-4-4-4-6-6-6-6-6-6-6-6-|------|| x1
A||--7-7-7-7-7-7-7-7-|--6-6-6-6-6-6-6-6-|--7-7-7-7-4-4-4-4-6-6-6-6-6-6-6-6-|------||
E||--5-5-5-5-5-5-5-5-|--4-4-4-4-4-4-4-4-|--5-5-5-5-2-2-2-2-4-4-4-4-4-4-4-4-|------||



E||--------------------|--------------------|------------------|------||
B||--------------------|--------------------|------------------|------||
G||--------------------|--------------------|------------------|------|| EN GUZEL GECEM SİZİNLE... ...CALARIM SOYLERİM KEYFE
D||--7--------9--------|--11----------------|------------------|------||
A||--7--------9--------|--11----------------|------------------|------|| x4
E||--5--------7--------|--9-----------------|------------------|------||





TEKRAR EN BASTAKİLER
BATUHAN
E||--------------------------|-------------------------|----||
B||--------------------------|-------------------------|----||
G||--------------------------|-------------------------|----||
D||--6--6--6--6--6--6--6--6--|--7--7--4----4--4--4--4--|----|| x4
A||--6--6--6--6--6--6--6--6--|--7--7--4----4--4--4--4--|----||
E||--4--4--4--4--4--4--4--4--|--5--5--2----2--2--2--2--|----||
KAAN
E||------------------------|-----------------------|------------------------|--------------------||
B||--4--2----0--4--2----0--|--4--2----0--5--4------|--4--2----0--4--2----0--|--4--0--5--0--5/-7--||
G||------------------------|-----------------------|------------------------|--------------------|| x2
D||------------------------|-----------------------|------------------------|--------------------||
A||------------------------|-----------------------|------------------------|--------------------||
E||------------------------|-----------------------|------------------------|--------------------||



**************
SOLO

KAAN
E||-------------------------------|---------------------------------|-------------------------------------|--------------------------------------|
B||--7/-9--9/-10--10/-12--12/-14--|--14/-16--17--16--14--12--10--9--|--7--5--4~---14-12-16-14-12-10-12-10-|--14-12-10-9-10-9-12-10-9-7-4-5-7-5-4-|
G||-------------------------------|---------------------------------|-------------------------------------|--------------------------------------|
D||-------------------------------|---------------------------------|-------------------------------------|--------------------------------------|
A||-------------------------------|---------------------------------|-------------------------------------|--------------------------------------|
E||-------------------------------|---------------------------------|-------------------------------------|--------------------------------------|


------------4r---------|----------------------------|---------------------------|--4r---------------------|---------------------------------------------|
--2----9---------5--4--|-------------------4--5-----|--4--5~------7--4--5--5~---|-----5--4r---------------|-----5----------------------9r---5--4~-------|
-----------------------|--4--6r-4--6~---6--------6--|----------6----------------|-----------6r-4--6~---4--|--6-----4--2--1h2p1----1---------------------|
-----------------------|----------------------------|---------------------------|-------------------------|--------------------4------------------------|
-----------------------|----------------------------|---------------------------|-------------------------|---------------------------------------------|
-----------------------|----------------------------|---------------------------|-------------------------|---------------------------------------------|

* KESİK var
-----------------------------------|--4r--------4--------|---------------------||
----4-5---4-5---7-4-5---4---2------|-------5-------------|---------------------||
--6-----6-----6-------6---4---2----|---------------------|--6r---4----6--------|| BAYASI DOGRUDURDA VURUS SURELERİNİ(4luk mu 16lik mı filan) YAZMAK İMKANSIZ SİZ AYARLAYIVERİN
-----------------------------------|---------------------|---------------------|| "r" ler bend oluyo "guitar proda yazdm da o ole yazdı"
-----------------------------------|---------------------|---------------------||
-----------------------------------|---------------------|---------------------||

BATUHAN
E||------------------|------------------|----------------------------------|------||
B||------------------|------------------|----------------------------------|------||
G||------------------|------------------|----------------------------------|------||
D||--7-7-7-7-7-7-7-7-|--6-6-6-6-6-6-6-6-|--7-7-7-7-4-4-4-4-6-6-6-6-6-6-6-6-|------||
A||--7-7-7-7-7-7-7-7-|--6-6-6-6-6-6-6-6-|--7-7-7-7-4-4-4-4-6-6-6-6-6-6-6-6-|------|| x1
E||--5-5-5-5-5-5-5-5-|--4-4-4-4-4-4-4-4-|--5-5-5-5-2-2-2-2-4-4-4-4-4-4-4-4-|------||

E||----------------------|----------------------|------------------|------||
B||----------------------|----------------------|------------------|------||
G||----------------------|----------------------|------------------|------||
D||--7---7-----9---9-----|--11---11-------------|------------------|------||
A||--7---7-----9---9-----|--11---11-------------|------------------|------|| x4
E||--5---5-----7---7-----|--9----9--------------|------------------|------||

E||------------------------------|----------------------------------||
B||------------------------------|----------------------------------||
G||------------------------------|----------------------------------||
D||------------------------------|----------------------------------|| yukardaki (4 kere calınan) 3. kez calınırken sanki
A||------------------------------|----------------------------------|| yandaki sey calınıyo gibi geldi bana bi dinleyin bas da olabilir
E||--9--9--9--9--11--11--11--11--|--12--12--12--12--14--14--14--14--|| emin diilim ama var gibi 3. calınırken bunla beraber bitiyo sonra 4. calınyo
************

solo bitiyo
E||--------------------------|--------------------------||
B||--------------------------|--------------------------||
G||--------------------------|--------------------------|| KAFADAN ATTIM SALLADIM.... ...BEN GONULDEN İNANDIM
D||--------------------------|--------------------------|| x4 palm mutingi oldukca abartırsanız clean tonda yakın bi ses cıkyo orjinaline
A||--------------------------|--------------------------||
E||--4--4--4--4--4--4--4--4--|--5--5--5--2--2--2--2--2--||


|----PALM Muting---|
E||------------------|------------------|----------------------------------|------||
B||------------------|------------------|----------------------------------|------|| SARKINI SEC GEL BENİMLE... ...DALGANI GEC SEN BENİMLE
G||------------------|------------------|----------------------------------|------||
D||--7-7-7-7-7-7-7-7-|--6-6-6-6-6-6-6-6-|--7-7-7-7-4-4-4-4-6-6-6-6-6-6-6-6-|------|| x1
A||--7-7-7-7-7-7-7-7-|--6-6-6-6-6-6-6-6-|--7-7-7-7-4-4-4-4-6-6-6-6-6-6-6-6-|------||
E||--5-5-5-5-5-5-5-5-|--4-4-4-4-4-4-4-4-|--5-5-5-5-2-2-2-2-4-4-4-4-4-4-4-4-|------||



E||--------------------------|--------------------------|--------------------------------------||
B||--------------------------|--------------------------|--------------------------------------||
G||--------------------------|--------------------------|--------------------------------------|| EN GUZEL GUNUM GECEM SIZINLE... ...CALARIM SOYLERİM KEYFE
D||--7-7-7-7-7-7-7-7-7-7-7-7-|--9-9-9-9-9-9-9-9-9-9-9-9-|--11-11-11-11-11-11-11-11-11-11-11-11-||
A||--7-7-7-7-7-7-7-7-7-7-7-7-|--9-9-9-9-9-9-9-9-9-9-9-9-|--11-11-11-11-11-11-11-11-11-11-11-11-|| x4
E||--5-5-5-5-5-5-5-5-5-5-5-5-|--7-7-7-7-7-7-7-7-7-7-7-7-|--9--9--9--9--9--9--9--9--9--9--9--9--||
Özel Mesaj Gönder
Bu Mesajı İmleyin:
Yazar
RE: En Güzel Günüm Gecem (tab) 2 - 5
batuhan__17
Üye

Mesaj Sayısı: 38
Nereden: İstanbul
Katılım Tarihi: 07.12.07
Üye No : 7911
Durum :
Mesaj Tarihi 17-12-2007 18:35
emeğine sağlık iyi güzel de soloyu Kaan deil Batuhan atıyowink
nevermind-17@hotmail.com Özel Mesaj Gönder
Bu Mesajı İmleyin:
Yazar
RE: En Güzel Günüm Gecem (tab) 3 - 5
gisssem
Üye

Mesaj Sayısı: 4
Nereden: Çanakkale
Katılım Tarihi: 11.07.07
Üye No : 4431
Durum :
Mesaj Tarihi 17-12-2007 18:58
tamam canım oLe oLsun farketmezgrin
Özel Mesaj Gönder
Bu Mesajı İmleyin:
Yazar
RE: En Güzel Günüm Gecem (tab) 4 - 5
batuhan__17
Üye

Mesaj Sayısı: 38
Nereden: İstanbul
Katılım Tarihi: 07.12.07
Üye No : 7911
Durum :
Mesaj Tarihi 17-12-2007 21:52
önemli olan soloyu atan değil atılan solo grin
nevermind-17@hotmail.com Özel Mesaj Gönder
Bu Mesajı İmleyin:
Yazar
RE: En Güzel Günüm Gecem (tab) 5 - 5
gnctrk
Üye

Mesaj Sayısı: 2
Nereden: Ankara
Katılım Tarihi: 25.01.10
Üye No : 15975
Durum :
Mesaj Tarihi 25-01-2010 23:43
/ bunun ne manaya geldğni unuttum arkadaşlar XSsad
Özel Mesaj Gönder
Bu Mesajı İmleyin:
Atlanilacak Forum:
Duman Forever Araçlar

| |

Anket
Sitenin arka plan resmi değişsin mi yoksa kalsın mı?

Evet değişsin.

Hayır değişmesin.

Ankete katılabilmek için üye olmanız yada üye girişi yapmanız gerekmektedir.
Giriş
Kullanıcı Adı

Şifre

Beni Hatırla




Kısa Mesajlar
Mesajınızı gönderebilmeniz için üye olmanız yada üye girişi yapmanız gerekmektedir.

recover  
12/10/2018 21:46
emirsmile

Slipknot_9  
08/07/2018 02:26
Slipknot forever ne oldu ya ^^

DuMaN_EmiR  
29/05/2018 09:50
Herkese selam. sad

manyaqiz  
23/05/2018 01:58
ah burayı nasıl özledim sad

DuMaN_EmiR  
06/02/2018 14:06
Buradan güzel insanlar geçti.

Daha fazla Mesaj
Forum Başlıkları
En Yeni Başlıklar
Ben Kimim?
Site İstek ve Revize...
Şu anda ne dinliyors...
grup içinde ayrım ya...
Amatör gruplar sahne...
Ölmeden Önce Gitmeni...
ŞarkılarlA Öğrencili...
emre aydın
Zincir / Kadıköy
Ogün Sanlısoy..
Scorpions
Dumancı Kardeşinize ...
Dumancı Kardeşinize ...
Arkadaşlar Lütfen Ya...
Arkadaşlar dumancı k...
pearl jam
en sevdiğiniz şarkı ...
Hayalleriniz neler?
18 mart dumanın yeni...
LİMİT - Alternatif R...
Destekleyenler
No buttons defined.
Doğum Günü
81_153
alemece
angel34
arda1360
berrin89
busu
CissY
crazy_catlak
devill
devrim_517
dmn_yak
doli
dreamm_girl
dumankolik1905
duman_-_rocker
duman_38
dumnkoliq_esgi
DuRocKsama
EMRE_41
EMRE_41780
EnD
ezgi_dumanyaq
frendy_04
GamEOveR
haunted
kosifler_53
lmt
mcraser
MERT52200
must_Qouth
omertopuz
pisiko
red_devil
serap
sophiesbistro
Copyright © 2006 - 2009 DumanForever.com
Valid CSS! Page Strength SEO Tool - SEOmoz.org